  0
SECTION
  2
HEADER
  9
$ACADVER
  1
AC1015
  9
$ACADMAINTVER
 70
     6
  9
$DWGCODEPAGE
  3
ANSI_1254
  9
$INSBASE
 10
0.0
 20
0.0
 30
0.0
  9
$EXTMIN
 10
0.0
 20
0.0
 30
0.0
  9
$EXTMAX
 10
279.4
 20
215.9
 30
0.0
  9
$LIMMIN
 10
0.0
 20
0.0
  9
$LIMMAX
 10
279.4
 20
215.9
  9
$ORTHOMODE
 70
     0
  9
$REGENMODE
 70
     1
  9
$FILLMODE
 70
     1
  9
$QTEXTMODE
 70
     0
  9
$MIRRTEXT
 70
     1
  9
$LTSCALE
 40
1.0
  9
$ATTMODE
 70
     1
  9
$TEXTSIZE
 40
3.5
  9
$TRACEWID
 40
1.0
  9
$TEXTSTYLE
  7
Standard
  9
$CLAYER
  8
0
  9
$CELTYPE
  6
ByLayer
  9
$CECOLOR
 62
   256
  9
$CELTSCALE
 40
1.0
  9
$DISPSILH
 70
     0
  9
$DIMSCALE
 40
1.0
  9
$DIMASZ
 40
3.5
  9
$DIMEXO
 40
1.0
  9
$DIMDLI
 40
3.75
  9
$DIMRND
 40
0.0
  9
$DIMDLE
 40
0.0
  9
$DIMEXE
 40
1.0
  9
$DIMTP
 40
0.0
  9
$DIMTM
 40
0.0
  9
$DIMTXT
 40
3.5
  9
$DIMCEN
 40
2.5
  9
$DIMTSZ
 40
0.0
  9
$DIMTOL
 70
     0
  9
$DIMLIM
 70
     0
  9
$DIMTIH
 70
     1
  9
$DIMTOH
 70
     1
  9
$DIMSE1
 70
     0
  9
$DIMSE2
 70
     0
  9
$DIMTAD
 70
     1
  9
$DIMZIN
 70
     0
  9
$DIMBLK
  1

  9
$DIMASO
 70
     1
  9
$DIMSHO
 70
     1
  9
$DIMPOST
  1

  9
$DIMAPOST
  1

  9
$DIMALT
 70
     0
  9
$DIMALTD
 70
     3
  9
$DIMALTF
 40
0.0393700787
  9
$DIMLFAC
 40
1.0
  9
$DIMTOFL
 70
     1
  9
$DIMTVP
 40
0.0
  9
$DIMTIX
 70
     0
  9
$DIMSOXD
 70
     0
  9
$DIMSAH
 70
     0
  9
$DIMBLK1
  1

  9
$DIMBLK2
  1

  9
$DIMSTYLE
  2
ISO-25
  9
$DIMCLRD
 70
     0
  9
$DIMCLRE
 70
     0
  9
$DIMCLRT
 70
     0
  9
$DIMTFAC
 40
1.0
  9
$DIMGAP
 40
1.524
  9
$DIMJUST
 70
     0
  9
$DIMSD1
 70
     0
  9
$DIMSD2
 70
     0
  9
$DIMTOLJ
 70
     0
  9
$DIMTZIN
 70
     0
  9
$DIMALTZ
 70
     0
  9
$DIMALTTZ
 70
     0
  9
$DIMUPT
 70
     0
  9
$DIMDEC
 70
     2
  9
$DIMTDEC
 70
     2
  9
$DIMALTU
 70
     2
  9
$DIMALTTD
 70
     3
  9
$DIMTXSTY
  7
Standard
  9
$DIMAUNIT
 70
     0
  9
$DIMADEC
 70
     2
  9
$DIMALTRND
 40
0.0
  9
$DIMAZIN
 70
     0
  9
$DIMDSEP
 70
    44
  9
$DIMATFIT
 70
     3
  9
$DIMFRAC
 70
     0
  9
$DIMLDRBLK
  1

  9
$DIMLUNIT
 70
     2
  9
$DIMLWD
 70
    -2
  9
$DIMLWE
 70
    -2
  9
$DIMTMOVE
 70
     0
  9
$LUNITS
 70
     2
  9
$LUPREC
 70
     2
  9
$SKETCHINC
 40
1.0
  9
$FILLETRAD
 40
10.0
  9
$AUNITS
 70
     0
  9
$AUPREC
 70
     2
  9
$MENU
  1
.
  9
$ELEVATION
 40
0.0
  9
$PELEVATION
 40
0.0
  9
$THICKNESS
 40
0.0
  9
$LIMCHECK
 70
     0
  9
$CHAMFERA
 40
0.0
  9
$CHAMFERB
 40
0.0
  9
$CHAMFERC
 40
0.0
  9
$CHAMFERD
 40
0.0
  9
$SKPOLY
 70
     0
  9
$TDCREATE
 40
2460704.460219722
  9
$TDUCREATE
 40
2460704.335219722
  9
$TDUPDATE
 40
2460704.460219919
  9
$TDUUPDATE
 40
2460704.335219919
  9
$TDINDWG
 40
0.0000000116
  9
$TDUSRTIMER
 40
0.0000000116
  9
$USRTIMER
 70
     1
  9
$ANGBASE
 50
0.0
  9
$ANGDIR
 70
     0
  9
$PDMODE
 70
     0
  9
$PDSIZE
 40
-1.0
  9
$PLINEWID
 40
0.0
  9
$SPLFRAME
 70
     0
  9
$SPLINETYPE
 70
     6
  9
$SPLINESEGS
 70
     8
  9
$HANDSEED
  5
B7
  9
$SURFTAB1
 70
     6
  9
$SURFTAB2
 70
     6
  9
$SURFTYPE
 70
     6
  9
$SURFU
 70
     6
  9
$SURFV
 70
     6
  9
$UCSBASE
  2

  9
$UCSNAME
  2

  9
$UCSORG
 10
0.0
 20
0.0
 30
0.0
  9
$UCSXDIR
 10
1.0
 20
0.0
 30
0.0
  9
$UCSYDIR
 10
0.0
 20
1.0
 30
0.0
  9
$UCSORTHOREF
  2

  9
$UCSORTHOVIEW
 70
     0
  9
$UCSORGTOP
 10
0.0
 20
0.0
 30
0.0
  9
$UCSORGBOTTOM
 10
0.0
 20
0.0
 30
0.0
  9
$UCSORGLEFT
 10
0.0
 20
0.0
 30
0.0
  9
$UCSORGRIGHT
 10
0.0
 20
0.0
 30
0.0
  9
$UCSORGFRONT
 10
0.0
 20
0.0
 30
0.0
  9
$UCSORGBACK
 10
0.0
 20
0.0
 30
0.0
  9
$PUCSBASE
  2

  9
$PUCSNAME
  2

  9
$PUCSORG
 10
0.0
 20
0.0
 30
0.0
  9
$PUCSXDIR
 10
1.0
 20
0.0
 30
0.0
  9
$PUCSYDIR
 10
0.0
 20
1.0
 30
0.0
  9
$PUCSORTHOREF
  2

  9
$PUCSORTHOVIEW
 70
     0
  9
$PUCSORGTOP
 10
0.0
 20
0.0
 30
0.0
  9
$PUCSORGBOTTOM
 10
0.0
 20
0.0
 30
0.0
  9
$PUCSORGLEFT
 10
0.0
 20
0.0
 30
0.0
  9
$PUCSORGRIGHT
 10
0.0
 20
0.0
 30
0.0
  9
$PUCSORGFRONT
 10
0.0
 20
0.0
 30
0.0
  9
$PUCSORGBACK
 10
0.0
 20
0.0
 30
0.0
  9
$USERI1
 70
     0
  9
$USERI2
 70
     0
  9
$USERI3
 70
     0
  9
$USERI4
 70
     0
  9
$USERI5
 70
     0
  9
$USERR1
 40
0.0
  9
$USERR2
 40
0.0
  9
$USERR3
 40
0.0
  9
$USERR4
 40
0.0
  9
$USERR5
 40
0.0
  9
$WORLDVIEW
 70
     1
  9
$SHADEDGE
 70
     3
  9
$SHADEDIF
 70
    70
  9
$TILEMODE
 70
     1
  9
$MAXACTVP
 70
    64
  9
$PINSBASE
 10
0.0
 20
0.0
 30
0.0
  9
$PLIMCHECK
 70
     0
  9
$PEXTMIN
 10
1.0000000000E+20
 20
1.0000000000E+20
 30
1.0000000000E+20
  9
$PEXTMAX
 10
-1.0000000000E+20
 20
-1.0000000000E+20
 30
-1.0000000000E+20
  9
$PLIMMIN
 10
0.0
 20
0.0
  9
$PLIMMAX
 10
420.0
 20
297.0
  9
$UNITMODE
 70
     0
  9
$VISRETAIN
 70
     1
  9
$PLINEGEN
 70
     0
  9
$PSLTSCALE
 70
     1
  9
$TREEDEPTH
 70
  3020
  9
$CMLSTYLE
  2
Standard
  9
$CMLJUST
 70
     0
  9
$CMLSCALE
 40
20.0
  9
$PROXYGRAPHICS
 70
     1
  9
$MEASUREMENT
 70
     1
  9
$CELWEIGHT
370
    -1
  9
$ENDCAPS
280
     0
  9
$JOINSTYLE
280
     0
  9
$LWDISPLAY
290
     1
  9
$INSUNITS
 70
     4
  9
$HYPERLINKBASE
  1

  9
$STYLESHEET
  1

  9
$XEDIT
290
     1
  9
$CEPSNTYPE
380
     0
  9
$PSTYLEMODE
290
     1
  9
$FINGERPRINTGUID
  2
{4de5e58c-d4b0-47d4-8bdd-f71454333c44}
  9
$VERSIONGUID
  2
{FAEB1C32-E019-11D5-929B-00C0DF256EC4}
  9
$EXTNAMES
290
     1
  9
$PSVPSCALE
 40
0.0
  9
$OLESTARTUP
290
     0
  0
ENDSEC
  0
SECTION
  2
CLASSES
  0
CLASS
  1
ACDBDICTIONARYWDFLT
  2
AcDbDictionaryWithDefault
  3
ObjectDBX Classes
 90
        0
280
     0
281
     0
  0
CLASS
  1
VISUALSTYLE
  2
AcDbVisualStyle
  3
ObjectDBX Classes
 90
     4095
280
     0
281
     0
  0
CLASS
  1
MATERIAL
  2
AcDbMaterial
  3
ObjectDBX Classes
 90
     1153
280
     0
281
     0
  0
CLASS
  1
SCALE
  2
AcDbScale
  3
ObjectDBX Classes
 90
     1153
280
     0
281
     0
  0
CLASS
  1
TABLESTYLE
  2
AcDbTableStyle
  3
ObjectDBX Classes
 90
     4095
280
     0
281
     0
  0
CLASS
  1
MLEADERSTYLE
  2
AcDbMLeaderStyle
  3
ACDB_MLEADERSTYLE_CLASS
 90
     4095
280
     0
281
     0
  0
CLASS
  1
SUN
  2
AcDbSun
  3
SCENEOE
 90
     1153
280
     0
281
     0
  0
CLASS
  1
ACDBPLACEHOLDER
  2
AcDbPlaceHolder
  3
ObjectDBX Classes
 90
        0
280
     0
281
     0
  0
CLASS
  1
LAYOUT
  2
AcDbLayout
  3
ObjectDBX Classes
 90
        0
280
     0
281
     0
  0
ENDSEC
  0
SECTION
  2
TABLES
  0
TABLE
  2
VPORT
  5
8
330
0
100
AcDbSymbolTable
 70
     1
  0
VPORT
  5
29
330
8
100
AcDbSymbolTableRecord
100
AcDbViewportTableRecord
  2
*Active
 70
     0
 10
0.0
 20
0.0
 11
1.0
 21
1.0
 12
139.7
 22
107.95
 13
0.0
 23
0.0
 14
10.0
 24
10.0
 15
10.0
 25
10.0
 16
0.0
 26
0.0
 36
1.0
 17
0.0
 27
0.0
 37
0.0
 40
215.9
 41
1.2941176471
 42
50.0
 43
0.0
 44
0.0
 50
0.0
 51
0.0
 71
     0
 72
  2000
 73
     1
 74
     3
 75
     0
 76
     0
 77
     0
 78
     0
281
     0
 65
     1
110
0.0
120
0.0
130
0.0
111
1.0
121
0.0
131
0.0
112
0.0
122
1.0
132
0.0
 79
     0
146
0.0
  0
ENDTAB
  0
TABLE
  2
LTYPE
  5
5
330
0
100
AcDbSymbolTable
 70
     6
  0
LTYPE
  5
14
330
5
100
AcDbSymbolTableRecord
100
AcDbLinetypeTableRecord
  2
ByBlock
 70
     0
  3

 72
    65
 73
     0
 40
0.0
  0
LTYPE
  5
15
330
5
100
AcDbSymbolTableRecord
100
AcDbLinetypeTableRecord
  2
ByLayer
 70
     0
  3

 72
    65
 73
     0
 40
0.0
  0
LTYPE
  5
16
330
5
100
AcDbSymbolTableRecord
100
AcDbLinetypeTableRecord
  2
Continuous
 70
     0
  3
Solid line
 72
    65
 73
     0
 40
0.0
  0
LTYPE
  5
6E
330
5
100
AcDbSymbolTableRecord
100
AcDbLinetypeTableRecord
  2
HIDDEN
 70
     0
  3
Hidden __ __ __ __ __ __ __ __ __ __ __ __ __ __
 72
    65
 73
     2
 40
1.905
 49
1.27
 74
     0
 49
-0.635
 74
     0
  0
LTYPE
  5
6F
330
5
100
AcDbSymbolTableRecord
100
AcDbLinetypeTableRecord
  2
PHANTOM
 70
     0
  3
Phantom ______  __  __  ______  __  __  ______
 72
    65
 73
     6
 40
12.7
 49
6.35
 74
     0
 49
-1.27
 74
     0
 49
1.27
 74
     0
 49
-1.27
 74
     0
 49
1.27
 74
     0
 49
-1.27
 74
     0
  0
LTYPE
  5
70
330
5
100
AcDbSymbolTableRecord
100
AcDbLinetypeTableRecord
  2
CENTER
 70
     0
  3
Center ____ _ ____ _ ____ _ ____ _ ____ _ ____
 72
    65
 73
     4
 40
10.16
 49
6.35
 74
     0
 49
-1.27
 74
     0
 49
1.27
 74
     0
 49
-1.27
 74
     0
  0
LTYPE
  5
71
330
5
100
AcDbSymbolTableRecord
100
AcDbLinetypeTableRecord
  2
CENTERX2
 70
     0
  3
Center (2x) ________  __  ________  __  _____
 72
    65
 73
     4
 40
20.32
 49
12.7
 74
     0
 49
-2.54
 74
     0
 49
2.54
 74
     0
 49
-2.54
 74
     0
  0
LTYPE
  5
72
330
5
100
AcDbSymbolTableRecord
100
AcDbLinetypeTableRecord
  2
DOT2
 70
     0
  3
Dot (.5x) ........................................
 72
    65
 73
     2
 40
0.635
 49
0.0
 74
     0
 49
-0.635
 74
     0
  0
ENDTAB
  0
TABLE
  2
LAYER
  5
2
330
0
100
AcDbSymbolTable
 70
    17
  0
LAYER
  5
10
330
2
100
AcDbSymbolTableRecord
100
AcDbLayerTableRecord
  2
0
 70
     0
 62
     7
  6
Continuous
370
    -3
390
F
  0
LAYER
  5
73
330
2
100
AcDbSymbolTableRecord
100
AcDbLayerTableRecord
  2
FORMAT
 70
     0
 62
     7
  6
Continuous
370
    -3
390
F
  0
LAYER
  5
74
330
2
100
AcDbSymbolTableRecord
100
AcDbLayerTableRecord
  2
YARDIMCI_GEOMETRI
 70
     0
 62
    -6
  6
Continuous
290
     0
370
    -3
390
F
  0
LAYER
  5
75
330
2
100
AcDbSymbolTableRecord
100
AcDbLayerTableRecord
  2
SAYFA_CERCEVESI
 70
     0
 62
     7
  6
Continuous
370
    25
390
F
  0
LAYER
  5
76
330
2
100
AcDbSymbolTableRecord
100
AcDbLayerTableRecord
  2
ANTET
 70
     0
 62
     7
  6
Continuous
370
    -3
390
F
  0
LAYER
  5
77
330
2
100
AcDbSymbolTableRecord
100
AcDbLayerTableRecord
  2
OLCU
 70
     0
 62
   150
  6
Continuous
370
    -3
390
F
  0
LAYER
  5
78
330
2
100
AcDbSymbolTableRecord
100
AcDbLayerTableRecord
  2
METIN
 70
     0
 62
    96
  6
Continuous
370
    -3
390
F
  0
LAYER
  5
79
330
2
100
AcDbSymbolTableRecord
100
AcDbLayerTableRecord
  2
BALON
 70
     0
 62
     5
  6
Continuous
370
    -3
390
F
  0
LAYER
  5
7A
330
2
100
AcDbSymbolTableRecord
100
AcDbLayerTableRecord
  2
VURGU
 70
     0
 62
     7
  6
Continuous
370
    -3
390
F
  0
LAYER
  5
7B
330
2
100
AcDbSymbolTableRecord
100
AcDbLayerTableRecord
  2
SILIK
 70
     0
 62
     7
  6
Continuous
370
    -3
390
F
  0
LAYER
  5
7C
330
2
100
AcDbSymbolTableRecord
100
AcDbLayerTableRecord
  2
MODEL
 70
     0
 62
     7
  6
Continuous
370
    -3
390
F
  0
LAYER
  5
7D
330
2
100
AcDbSymbolTableRecord
100
AcDbLayerTableRecord
  2
DETAYLANDıRMA
 70
     0
 62
   190
  6
Continuous
370
    -3
390
F
  0
LAYER
  5
7E
330
2
100
AcDbSymbolTableRecord
100
AcDbLayerTableRecord
  2
TOLERANS
 70
     0
 62
   230
  6
Continuous
370
    -3
390
F
  0
LAYER
  5
7F
330
2
100
AcDbSymbolTableRecord
100
AcDbLayerTableRecord
  2
MERKEZ_CIZGILERI
 70
     0
 62
    30
  6
Continuous
370
    -3
390
F
  0
LAYER
  5
80
330
2
100
AcDbSymbolTableRecord
100
AcDbLayerTableRecord
  2
KESIT-DETAY_CIZGILERI
 70
     0
 62
     7
  6
Continuous
370
    -3
390
F
  0
LAYER
  5
81
330
2
100
AcDbSymbolTableRecord
100
AcDbLayerTableRecord
  2
\U+041E\U+0421\U+0415\U+0412\U+042B\U+0415
 70
     0
 62
     7
  6
Continuous
370
    -3
390
F
  0
LAYER
  5
82
330
2
100
AcDbSymbolTableRecord
100
AcDbLayerTableRecord
  2
\U+0412\U+041E\U+0414\U+042F\U+041D\U+042B\U+0415_\U+0417\U+041D\U+0410\U+041A\U+0418
 70
     0
 62
    11
  6
Continuous
370
    -3
390
F
  0
ENDTAB
  0
TABLE
  2
STYLE
  5
3
330
0
100
AcDbSymbolTable
 70
     1
  0
STYLE
  5
11
330
3
100
AcDbSymbolTableRecord
100
AcDbTextStyleTableRecord
  2
Standard
 70
     0
 40
0.0
 41
1.0
 50
0.0
 71
     0
 42
3.5
  3
txt
  4

  0
ENDTAB
  0
TABLE
  2
VIEW
  5
6
330
0
100
AcDbSymbolTable
 70
     0
  0
ENDTAB
  0
TABLE
  2
UCS
  5
7
330
0
100
AcDbSymbolTable
 70
     0
  0
ENDTAB
  0
TABLE
  2
APPID
  5
9
330
0
100
AcDbSymbolTable
 70
     1
  0
APPID
  5
12
330
9
100
AcDbSymbolTableRecord
100
AcDbRegAppTableRecord
  2
ACAD
 70
     0
  0
ENDTAB
  0
TABLE
  2
DIMSTYLE
  5
A
330
0
100
AcDbSymbolTable
 70
     1
100
AcDbDimStyleTable
  0
DIMSTYLE
105
27
330
A
100
AcDbSymbolTableRecord
100
AcDbDimStyleTableRecord
  2
ISO-25
 70
     0
 41
2.5
 42
0.625
 43
3.75
 44
1.25
 73
     0
 74
     0
 77
     1
 78
     8
140
2.5
141
2.5
143
0.0393700787
147
0.625
171
     3
172
     1
178
     0
271
     2
272
     2
274
     3
278
    44
283
     0
284
     8
340
11
  0
ENDTAB
  0
TABLE
  2
BLOCK_RECORD
  5
1
330
0
100
AcDbSymbolTable
 70
     2
  0
BLOCK_RECORD
  5
1F
330
1
100
AcDbSymbolTableRecord
100
AcDbBlockTableRecord
  2
*Model_Space
340
22
  0
BLOCK_RECORD
  5
1B
330
1
100
AcDbSymbolTableRecord
100
AcDbBlockTableRecord
  2
*Paper_Space
340
1E
  0
BLOCK_RECORD
  5
23
330
1
100
AcDbSymbolTableRecord
100
AcDbBlockTableRecord
  2
*Paper_Space0
340
26
  0
BLOCK_RECORD
  5
85
330
1
100
AcDbSymbolTableRecord
100
AcDbBlockTableRecord
  2
SW_CENTERMARKSYMBOL_0
340
0
102
{BLKREFS
331
90
102
}
  0
ENDTAB
  0
ENDSEC
  0
SECTION
  2
BLOCKS
  0
BLOCK
  5
20
330
1F
100
AcDbEntity
  8
0
100
AcDbBlockBegin
  2
*Model_Space
 70
     0
 10
0.0
 20
0.0
 30
0.0
  3
*Model_Space
  1

  0
ENDBLK
  5
21
330
1F
100
AcDbEntity
  8
0
100
AcDbBlockEnd
  0
BLOCK
  5
1C
330
1B
100
AcDbEntity
 67
     1
  8
0
100
AcDbBlockBegin
  2
*Paper_Space
 70
     0
 10
0.0
 20
0.0
 30
0.0
  3
*Paper_Space
  1

  0
ENDBLK
  5
1D
330
1B
100
AcDbEntity
 67
     1
  8
0
100
AcDbBlockEnd
  0
BLOCK
  5
24
330
23
100
AcDbEntity
  8
0
100
AcDbBlockBegin
  2
*Paper_Space0
 70
     0
 10
0.0
 20
0.0
 30
0.0
  3
*Paper_Space0
  1

  0
ENDBLK
  5
25
330
23
100
AcDbEntity
  8
0
100
AcDbBlockEnd
  0
BLOCK
  5
86
330
85
100
AcDbEntity
  8
0
100
AcDbBlockBegin
  2
SW_CENTERMARKSYMBOL_0
 70
     0
 10
0.0
 20
0.0
 30
0.0
  3
SW_CENTERMARKSYMBOL_0
  1

  0
LINE
  5
88
330
85
100
AcDbEntity
  8
FORMAT
 62
     0
100
AcDbLine
 10
0.0
 20
0.0
 30
0.0
 11
0.0
 21
2.5
 31
0.0
  0
LINE
  5
89
330
85
100
AcDbEntity
  8
FORMAT
 62
     0
100
AcDbLine
 10
0.0
 20
0.0
 30
0.0
 11
-2.5
 21
0.0
 31
0.0
  0
LINE
  5
8A
330
85
100
AcDbEntity
  8
FORMAT
 62
     0
100
AcDbLine
 10
0.0
 20
0.0
 30
0.0
 11
0.0
 21
-2.5
 31
0.0
  0
LINE
  5
8B
330
85
100
AcDbEntity
  8
FORMAT
 62
     0
100
AcDbLine
 10
0.0
 20
0.0
 30
0.0
 11
2.5
 21
0.0
 31
0.0
  0
LINE
  5
8C
330
85
100
AcDbEntity
  8
FORMAT
 62
     0
100
AcDbLine
 10
0.0
 20
5.0
 30
0.0
 11
0.0
 21
92.5
 31
0.0
  0
LINE
  5
8D
330
85
100
AcDbEntity
  8
FORMAT
 62
     0
100
AcDbLine
 10
-5.0
 20
0.0
 30
0.0
 11
-92.5
 21
0.0
 31
0.0
  0
LINE
  5
8E
330
85
100
AcDbEntity
  8
FORMAT
 62
     0
100
AcDbLine
 10
0.0
 20
-5.0
 30
0.0
 11
0.0
 21
-92.5
 31
0.0
  0
LINE
  5
8F
330
85
100
AcDbEntity
  8
FORMAT
 62
     0
100
AcDbLine
 10
5.0
 20
0.0
 30
0.0
 11
92.5
 21
0.0
 31
0.0
  0
ENDBLK
  5
87
330
85
100
AcDbEntity
  8
0
100
AcDbBlockEnd
  0
ENDSEC
  0
SECTION
  2
ENTITIES
  0
CIRCLE
  5
83
330
1F
100
AcDbEntity
  8
0
  6
Continuous
 62
     7
370
    25
100
AcDbCircle
 10
142.6701850862
 20
111.7470748925
 30
0.0
 40
89.99999999999999
  0
CIRCLE
  5
84
330
1F
100
AcDbEntity
  8
0
  6
Continuous
 62
     7
370
    25
100
AcDbCircle
 10
142.6701850862
 20
111.7470748925
 30
0.0
 40
79.30000000000001
  0
INSERT
  5
90
330
1F
100
AcDbEntity
  8
FORMAT
 62
     7
100
AcDbBlockReference
  2
SW_CENTERMARKSYMBOL_0
 10
142.6701850862
 20
111.7470748925
 30
0.0
  0
ARC
  5
91
330
1F
100
AcDbEntity
  8
0
  6
Continuous
 62
     7
370
    25
100
AcDbCircle
 10
139.8328001418
 20
191.2707646059
 30
0.0
 40
359.9999999999999
100
AcDbArc
 50
255.9883976264
 51
270.0
  0
ARC
  5
92
330
1F
100
AcDbEntity
  8
0
  6
Continuous
 62
     7
370
    25
100
AcDbCircle
 10
145.5075700306
 20
191.2707646059
 30
0.0
 40
359.9999999999999
100
AcDbArc
 50
270.0
 51
284.0116023736
  0
LINE
  5
93
330
1F
100
AcDbEntity
  8
0
  6
Continuous
 62
     7
370
    25
100
AcDbLine
 10
139.8328001418
 20
-168.7292353941
 30
0.0
 11
145.5075700306
 21
-168.7292353941
 31
0.0
  0
LINE
  5
94
330
1F
100
AcDbEntity
  8
0
  6
Continuous
 62
     7
370
    25
100
AcDbLine
 10
52.6701850862
 20
-39.5579281253
 30
0.0
 11
52.6701850862
 21
-158.0180536186
 31
0.0
  0
LINE
  5
95
330
1F
100
AcDbEntity
  8
0
  6
Continuous
 62
     7
370
    25
100
AcDbLine
 10
232.6701850862
 20
-158.0180536186
 30
0.0
 11
232.6701850862
 21
-39.5579281253
 31
0.0
  0
LINE
  5
96
330
1F
100
AcDbEntity
  8
0
  6
Continuous
 62
     7
370
    25
100
AcDbLine
 10
142.6701850862
 20
-158.0180536186
 30
0.0
 11
232.6701850862
 21
-158.0180536186
 31
0.0
  0
LINE
  5
97
330
1F
100
AcDbEntity
  8
0
  6
Continuous
 62
     7
370
    25
100
AcDbLine
 10
52.6701850862
 20
-158.0180536186
 30
0.0
 11
142.6701850862
 21
-158.0180536186
 31
0.0
  0
LINE
  5
98
330
1F
100
AcDbEntity
  8
0
  6
Continuous
 62
     7
370
    25
100
AcDbLine
 10
142.6701850862
 20
-39.5579281253
 30
0.0
 11
232.6701850862
 21
-39.5579281253
 31
0.0
  0
LINE
  5
99
330
1F
100
AcDbEntity
  8
0
  6
Continuous
 62
     7
370
    25
100
AcDbLine
 10
52.6701850862
 20
-39.5579281253
 30
0.0
 11
142.6701850862
 21
-39.5579281253
 31
0.0
  0
LINE
  5
9A
330
1F
100
AcDbEntity
  8
0
  6
Continuous
 62
     7
370
    25
100
AcDbLine
 10
232.6701850862
 20
245.0824993497
 30
0.0
 11
232.6701850862
 21
363.542624843
 31
0.0
  0
LINE
  5
9B
330
1F
100
AcDbEntity
  8
0
  6
Continuous
 62
     7
370
    25
100
AcDbLine
 10
52.6701850862
 20
363.542624843
 30
0.0
 11
52.6701850862
 21
245.0824993497
 31
0.0
  0
ARC
  5
9C
330
1F
100
AcDbEntity
  8
0
  6
Continuous
 62
     7
370
    25
100
AcDbCircle
 10
145.5075700306
 20
14.2538066185
 30
0.0
 40
359.9999999999999
100
AcDbArc
 50
75.9883976264
 51
90.0
  0
ARC
  5
9D
330
1F
100
AcDbEntity
  8
0
  6
Continuous
 62
     7
370
    25
100
AcDbCircle
 10
139.8328001418
 20
14.2538066185
 30
0.0
 40
359.9999999999999
100
AcDbArc
 50
90.0
 51
104.0116023736
  0
LINE
  5
9E
330
1F
100
AcDbEntity
  8
0
  6
Continuous
 62
     7
370
    25
100
AcDbLine
 10
145.5075700306
 20
374.2538066185
 30
0.0
 11
139.8328001418
 21
374.2538066185
 31
0.0
  0
LINE
  5
9F
330
1F
100
AcDbEntity
  8
0
  6
Continuous
 62
     7
370
    25
100
AcDbLine
 10
232.6701850862
 20
245.0824993497
 30
0.0
 11
52.6701850862
 21
245.0824993497
 31
0.0
  0
LINE
  5
A0
330
1F
100
AcDbEntity
  8
0
  6
Continuous
 62
     7
370
    25
100
AcDbLine
 10
232.6701850862
 20
363.542624843
 30
0.0
 11
52.6701850862
 21
363.542624843
 31
0.0
  0
ARC
  5
A1
330
1F
100
AcDbEntity
  8
0
  6
Continuous
 62
     7
370
    25
100
AcDbCircle
 10
643.9157357469
 20
114.584459837
 30
0.0
 40
359.9999999999999
100
AcDbArc
 50
165.9883976264
 51
180.0
  0
ARC
  5
A2
330
1F
100
AcDbEntity
  8
0
  6
Continuous
 62
     7
370
    25
100
AcDbCircle
 10
643.9157357469
 20
108.9096899481
 30
0.0
 40
359.9999999999999
100
AcDbArc
 50
180.0
 51
194.0116023736
  0
LINE
  5
A3
330
1F
100
AcDbEntity
  8
0
  6
Continuous
 62
     7
370
    25
100
AcDbLine
 10
283.9157357469
 20
114.584459837
 30
0.0
 11
283.9157357469
 21
108.9096899481
 31
0.0
  0
LINE
  5
A4
330
1F
100
AcDbEntity
  8
0
  6
Continuous
 62
     7
370
    25
100
AcDbLine
 10
413.0870430157
 20
201.7470748925
 30
0.0
 11
294.6269175223
 21
201.7470748925
 31
0.0
  0
LINE
  5
A5
330
1F
100
AcDbEntity
  8
0
  6
Continuous
 62
     7
370
    25
100
AcDbLine
 10
294.6269175223
 20
21.7470748925
 30
0.0
 11
413.0870430157
 21
21.7470748925
 31
0.0
  0
LINE
  5
A6
330
1F
100
AcDbEntity
  8
0
  6
Continuous
 62
     7
370
    25
100
AcDbLine
 10
294.6269175223
 20
201.7470748925
 30
0.0
 11
294.6269175223
 21
21.7470748925
 31
0.0
  0
LINE
  5
A7
330
1F
100
AcDbEntity
  8
0
  6
Continuous
 62
     7
370
    25
100
AcDbLine
 10
413.0870430157
 20
201.7470748925
 30
0.0
 11
413.0870430157
 21
21.7470748925
 31
0.0
  0
ARC
  5
A8
330
1F
100
AcDbEntity
  8
0
  6
Continuous
 62
     7
370
    25
100
AcDbCircle
 10
-377.728304238
 20
108.9096899481
 30
0.0
 40
359.9999999999998
100
AcDbArc
 50
345.9883976264
 51
0.0
  0
ARC
  5
A9
330
1F
100
AcDbEntity
  8
0
  6
Continuous
 62
     7
370
    25
100
AcDbCircle
 10
-377.728304238
 20
114.584459837
 30
0.0
 40
359.9999999999998
100
AcDbArc
 50
0.0
 51
14.0116023736
  0
LINE
  5
AA
330
1F
100
AcDbEntity
  8
0
  6
Continuous
 62
     7
370
    25
100
AcDbLine
 10
-17.728304238
 20
108.9096899481
 30
0.0
 11
-17.728304238
 21
114.584459837
 31
0.0
  0
LINE
  5
AB
330
1F
100
AcDbEntity
  8
0
  6
Continuous
 62
     7
370
    25
100
AcDbLine
 10
-146.8996115068
 20
21.7470748925
 30
0.0
 11
-28.4394860135
 21
21.7470748925
 31
0.0
  0
LINE
  5
AC
330
1F
100
AcDbEntity
  8
0
  6
Continuous
 62
     7
370
    25
100
AcDbLine
 10
-28.4394860135
 20
201.7470748925
 30
0.0
 11
-146.8996115068
 21
201.7470748925
 31
0.0
  0
LINE
  5
AD
330
1F
100
AcDbEntity
  8
0
  6
Continuous
 62
     7
370
    25
100
AcDbLine
 10
-28.4394860135
 20
21.7470748925
 30
0.0
 11
-28.4394860135
 21
201.7470748925
 31
0.0
  0
LINE
  5
AE
330
1F
100
AcDbEntity
  8
0
  6
Continuous
 62
     7
370
    25
100
AcDbLine
 10
-146.8996115068
 20
21.7470748925
 30
0.0
 11
-146.8996115068
 21
201.7470748925
 31
0.0
  0
LINE
  5
AF
330
1F
100
AcDbEntity
  8
0
  6
Continuous
 62
     7
370
    25
100
AcDbLine
 10
275.0789223617
 20
-169.6050975399
 30
0.0
 11
358.8428803982
 21
-217.9610012301
 31
0.0
  0
LINE
  5
B0
330
1F
100
AcDbEntity
  8
0
  6
Continuous
 62
     7
370
    25
100
AcDbLine
 10
448.8355663354
 20
-62.0722060016
 30
0.0
 11
365.0716082989
 21
-13.7163023114
 31
0.0
  0
LWPOLYLINE
  5
B1
330
1F
100
AcDbEntity
  8
0
  6
Continuous
 62
     7
370
    25
100
AcDbPolyline
 90
      136
 70
   128
 43
0.0
 10
320.0752653303
 20
-165.1493729954
 10
323.036118068
 20
-163.3605290418
 10
325.9905582579
 20
-161.4163992243
 10
328.9321872406
 20
-159.3211940951
 10
331.8546341026
 20
-157.079451402
 10
334.7515694749
 20
-154.6960262604
 10
337.6167192405
 20
-152.1760806385
 10
340.443878123
 20
-149.5250721773
 10
343.2269231258
 20
-146.748742371
 10
345.9598267931
 20
-143.8531041315
 10
348.6366702643
 20
-140.8444287666
 10
351.2516560923
 20
-137.7292323971
 10
353.7991208002
 20
-134.5142618446
 10
356.2735471466
 20
-131.2064800196
 10
358.6695760752
 20
-127.8130508408
 10
360.9820183208
 20
-124.3413237202
 10
363.2058656484
 20
-120.7988176457
 10
365.3363016999
 20
-117.1932048966
 10
367.3687124252
 20
-113.5322944273
 10
369.2986960753
 20
-109.8240149545
 10
371.1220727353
 20
-106.076397786
 10
372.8348933774
 20
-102.297559426
 10
374.4334484135
 20
-98.4956839968
 10
375.9142757294
 20
-94.6790055142
 10
377.2741681828
 20
-90.8557900537
 10
378.5101805496
 20
-87.0343178488
 10
379.6196359021
 20
-83.2228653573
 10
380.6001314071
 20
-79.4296873366
 10
381.4495435296
 20
-75.6629989655
 10
382.1660326323
 20
-71.9309580524
 10
382.7480469591
 20
-68.2416473669
 10
383.1943259967
 20
-64.6030571343
 10
383.5039032041
 20
-61.0230677309
 10
383.676108106
 20
-57.5094326165
 10
383.7105677448
 20
-54.0697615424
 10
383.6072074888
 20
-50.7115040702
 10
383.3662511931
 20
-47.4419334377
 10
382.9882207155
 20
-44.268130807
 10
382.4739347858
 20
-41.1969699278
 10
381.8245072328
 20
-38.2351022506
 10
381.041344572
 20
-35.3889425213
 10
380.1261429594
 20
-32.6646548882
 10
379.0808845177
 20
-30.0681395515
 10
377.907833044
 20
-27.6050199854
 10
376.6095291067
 20
-25.2806307582
 10
375.1887845429
 20
-23.1000059796
 10
373.648676369
 20
-21.0678683971
 10
371.9925401164
 20
-19.1886191684
 10
370.2239626074
 20
-17.4663283287
 10
368.346774187
 20
-15.9047259765
 10
366.3650404274
 20
-14.5071941947
 10
364.2830533227
 20
-13.2767597261
 10
362.1053219931
 20
-12.2160874176
 10
359.83656292
 20
-11.3274744493
 10
357.4816897303
 20
-10.6128453591
 10
355.0458025548
 20
-10.0737478743
 10
352.5341769828
 20
-9.7113495601
 10
349.9522526361
 20
-9.5264352906
 10
347.3056213878
 20
-9.5194055489
 10
344.6000152518
 20
-9.6902755598
 10
341.8412939686
 20
-10.0386752569
 10
339.0354323142
 20
-10.5638500841
 10
336.18850716
 20
-11.2646626297
 10
333.3066843122
 20
-12.1395950897
 10
330.3962051571
 20
-13.1867525553
 10
327.4633731446
 20
-14.4038671165
 10
324.5145401357
 20
-15.7883027743
 10
321.5560926462
 20
-17.3370611492
 10
318.5944380144
 20
-19.0467879756
 10
315.6359905248
 20
-20.9137803658
 10
312.687157516
 20
-22.93399483
 10
309.7543255035
 20
-25.1030560337
 10
306.8438463484
 20
-27.4162662731
 10
303.9620235005
 20
-29.8686156501
 10
301.1150983464
 20
-32.4547929219
 10
298.309236692
 20
-35.1691970045
 10
295.5505154088
 20
-38.0059491031
 10
292.8449092728
 20
-40.9589054443
 10
290.1982780245
 20
-44.0216705822
 10
287.6163536777
 20
-47.1876112495
 10
285.1047281058
 20
-50.4498707238
 10
282.6688409303
 20
-53.8013836774
 10
280.3139677406
 20
-57.2348914796
 10
278.0452086674
 20
-60.742957917
 10
275.8674773379
 20
-64.317985299
 10
273.7854902332
 20
-67.9522309123
 10
271.8037564736
 20
-71.6378237901
 10
269.9265680532
 20
-75.366781759
 10
268.1579905442
 20
-79.1310287264
 10
266.5018542916
 20
-82.9224121715
 10
264.9617461177
 20
-86.7327208021
 10
263.5410015539
 20
-90.5537023381
 10
262.2426976166
 20
-94.3770813843
 10
261.0696461429
 20
-98.1945773532
 10
260.0243877012
 20
-101.9979223986
 10
259.1091860885
 20
-105.7788793219
 10
258.3260234277
 20
-109.5292594125
 10
257.6765958748
 20
-113.2409401821
 10
257.1623099451
 20
-116.9058829568
 10
256.7842794675
 20
-120.5161502865
 10
256.5433231718
 20
-124.0639231362
 10
256.4399629158
 20
-127.5415178199
 10
256.4744225546
 20
-130.9414026418
 10
256.6466274565
 20
-134.2562142086
 10
256.9562046639
 20
-137.4787733765
 10
257.4024837015
 20
-140.6021007999
 10
257.9844980283
 20
-143.6194320472
 10
258.700987131
 20
-146.5242322507
 10
259.5503992535
 20
-149.31021026
 10
260.5308947585
 20
-151.9713322672
 10
261.640350111
 20
-154.5018348745
 10
262.8763624778
 20
-156.8962375768
 10
264.2362549312
 20
-159.149354631
 10
265.7170822471
 20
-161.2563062873
 10
267.3156372832
 20
-163.2125293575
 10
269.0284579253
 20
-165.0137870982
 10
270.8518345853
 20
-166.6561783861
 10
272.7818182354
 20
-168.1361461674
 10
274.8142289607
 20
-169.4504851615
 10
276.9446650122
 20
-170.5963488027
 10
279.1685123398
 20
-171.5712554056
 10
281.4809545854
 20
-172.3730935397
 10
283.876983514
 20
-173.0001266019
 10
286.3514098604
 20
-173.4509965784
 10
288.8988745683
 20
-173.7247269852
 10
291.5138603963
 20
-173.8207249831
 10
294.1907038675
 20
-173.7387826619
 10
296.9236075348
 20
-173.4790774904
 10
299.7066525376
 20
-173.0421719322
 10
302.5338114201
 20
-172.4290122274
 10
305.3989611857
 20
-171.6409263434
 10
308.295896558
 20
-170.6796210987
 10
311.21834342
 20
-169.5471784665
 10
314.1599724027
 20
-168.2460510653
 10
317.1144125926
 20
-166.7790568473
 10
320.0752653303
 20
-165.1493729954
  0
LWPOLYLINE
  5
B2
330
1F
100
AcDbEntity
  8
0
  6
Continuous
 62
     7
370
    25
100
AcDbPolyline
 90
       52
 70
   128
 43
0.0
 10
403.8392233668
 20
-213.5052766855
 10
406.8000761045
 20
-211.716432732
 10
409.7545162944
 20
-209.7723029144
 10
412.6961452771
 20
-207.6770977852
 10
415.6185921392
 20
-205.4353550921
 10
418.5155275114
 20
-203.0519299505
 10
421.380677277
 20
-200.5319843286
 10
424.2078361595
 20
-197.8809758675
 10
426.9908811623
 20
-195.1046460611
 10
429.7237848297
 20
-192.2090078216
 10
432.4006283008
 20
-189.2003324567
 10
435.0156141288
 20
-186.0851360872
 10
437.5630788367
 20
-182.8701655348
 10
440.0375051832
 20
-179.5623837097
 10
442.4335341117
 20
-176.1689545309
 10
444.7459763573
 20
-172.6972274103
 10
446.9698236849
 20
-169.1547213358
 10
449.1002597364
 20
-165.5491085868
 10
451.1326704617
 20
-161.8881981174
 10
453.0626541118
 20
-158.1799186447
 10
454.8860307718
 20
-154.4323014761
 10
456.5988514139
 20
-150.6534631161
 10
458.19740645
 20
-146.8515876869
 10
459.6782337659
 20
-143.0349092043
 10
461.0381262194
 20
-139.2116937438
 10
462.2741385861
 20
-135.3902215389
 10
463.3835939386
 20
-131.5787690474
 10
464.3640894436
 20
-127.7855910267
 10
465.2135015661
 20
-124.0189026556
 10
465.9299906688
 20
-120.2868617426
 10
466.5120049956
 20
-116.597551057
 10
466.9582840333
 20
-112.9589608244
 10
467.2678612406
 20
-109.378971421
 10
467.4400661425
 20
-105.8653363066
 10
467.4745257814
 20
-102.4256652325
 10
467.3711655253
 20
-99.0674077603
 10
467.1302092296
 20
-95.7978371279
 10
466.752178752
 20
-92.6240344972
 10
466.2378928223
 20
-89.5528736179
 10
465.5884652694
 20
-86.5910059407
 10
464.8053026086
 20
-83.7448462115
 10
463.8901009959
 20
-81.0205585783
 10
462.8448425542
 20
-78.4240432416
 10
461.6717910806
 20
-75.9609236755
 10
460.3734871432
 20
-73.6365344484
 10
458.9527425794
 20
-71.4559096697
 10
457.4126344056
 20
-69.4237720873
 10
455.7564981529
 20
-67.5445228585
 10
453.9879206439
 20
-65.8222320188
 10
452.1107322236
 20
-64.2606296666
 10
450.128998464
 20
-62.8630978849
 10
448.8355663354
 20
-62.0722060016
  0
LWPOLYLINE
  5
B3
330
1F
100
AcDbEntity
  8
0
  6
Continuous
 62
     7
370
    25
100
AcDbPolyline
 90
       18
 70
   128
 43
0.0
 10
358.8428803982
 20
-217.9610012301
 10
360.7086230487
 20
-218.9522524928
 10
362.9324703763
 20
-219.9271590958
 10
365.2449126219
 20
-220.7289972298
 10
367.6409415505
 20
-221.3560302921
 10
370.115367897
 20
-221.8069002686
 10
372.6628326048
 20
-222.0806306753
 10
375.2778184329
 20
-222.1766286732
 10
377.954661904
 20
-222.0946863521
 10
380.6875655713
 20
-221.8349811806
 10
383.4706105741
 20
-221.3980756223
 10
386.2977694566
 20
-220.7849159175
 10
389.1629192222
 20
-219.9968300335
 10
392.0598545945
 20
-219.0355247889
 10
394.9823014565
 20
-217.9030821567
 10
397.9239304392
 20
-216.6019547554
 10
400.8783706292
 20
-215.1349605375
 10
403.8392233668
 20
-213.5052766855
  0
LWPOLYLINE
  5
B4
330
1F
100
AcDbEntity
  8
0
  6
Continuous
 62
     7
370
    25
100
AcDbPolyline
 90
      127
 70
   128
 43
0.0
 10
320.0752653303
 20
-156.4123863082
 10
322.8703019769
 20
-154.71835455
 10
325.6583897219
 20
-152.8675515268
 10
328.4325969401
 20
-150.8645786267
 10
331.186026515
 20
-148.7144155558
 10
333.911832987
 20
-146.4224079584
 10
336.6032395717
 20
-143.9942541264
 10
339.2535550083
 20
-141.4359908329
 10
341.8561901949
 20
-138.7539783235
 10
344.4046745705
 20
-135.9548845039
 10
346.8926722013
 20
-133.0456683623
 10
349.3139975332
 20
-130.0335626685
 10
351.66263077
 20
-126.9260559918
 10
353.9327328393
 20
-123.7308740834
 10
356.1186599097
 20
-120.4559606691
 10
358.2149774221
 20
-117.1094576995
 10
360.2164736009
 20
-113.6996851083
 10
362.1181724112
 20
-110.2351201274
 10
363.9153459301
 20
-106.7243762113
 10
365.6035261011
 20
-103.1761816224
 10
367.1785158422
 20
-99.5993577317
 10
368.636399481
 20
-96.0027970868
 10
369.9735524888
 20
-92.3954413043
 10
371.1866504927
 20
-88.7862588389
 10
372.2726775398
 20
-85.1842226869
 10
373.2289335959
 20
-81.5982880778
 10
374.0530412576
 20
-78.03737021
 10
374.7429516635
 20
-74.5103220864
 10
375.2969495877
 20
-71.0259125044
 10
375.7136577039
 20
-67.5928042552
 10
375.9920400102
 20
-64.2195325868
 10
376.1314044043
 20
-60.914483984
 10
376.1314044043
 20
-57.6858753186
 10
375.9920400102
 20
-54.5417334203
 10
375.7136577039
 20
-51.4898751212
 10
375.2969495877
 20
-48.537887822
 10
374.7429516635
 20
-45.6931106283
 10
374.0530412576
 20
-42.9626161042
 10
373.2289335959
 20
-40.3531926896
 10
372.2726775398
 20
-37.871327822
 10
371.1866504927
 20
-35.5231918087
 10
369.9735524888
 20
-33.3146224857
 10
368.636399481
 20
-31.2511107043
 10
367.1785158422
 20
-29.33778668
 10
365.6035261011
 20
-27.5794072378
 10
363.9153459301
 20
-25.9803439859
 10
362.1181724112
 20
-24.5445724477
 10
360.2164736009
 20
-23.2756621774
 10
358.2149774221
 20
-22.1767678857
 10
356.1186599097
 20
-21.2506215972
 10
353.9327328393
 20
-20.4995258574
 10
351.66263077
 20
-19.9253480086
 10
349.3139975332
 20
-19.5295155474
 10
346.8926722013
 20
-19.3130125758
 10
344.4046745705
 20
-19.2763773542
 10
341.8561901949
 20
-19.4197009635
 10
339.2535550083
 20
-19.7426270786
 10
336.6032395717
 20
-20.2443528545
 10
333.911832987
 20
-20.9236309217
 10
331.186026515
 20
-21.7787724879
 10
328.4325969401
 20
-22.8076515364
 10
325.6583897219
 20
-24.0077101119
 10
322.8703019769
 20
-25.3759646796
 10
320.0752653303
 20
-26.9090135431
 10
317.2802286837
 20
-28.6030453014
 10
314.4921409387
 20
-30.4538483246
 10
311.7179337205
 20
-32.4568212247
 10
308.9645041456
 20
-34.6069842956
 10
306.2386976736
 20
-36.898991893
 10
303.5472910889
 20
-39.327145725
 10
300.8969756523
 20
-41.8854090185
 10
298.2943404657
 20
-44.5674215279
 10
295.7458560901
 20
-47.3665153475
 10
293.2578584593
 20
-50.2757314891
 10
290.8365331274
 20
-53.2878371829
 10
288.4878998906
 20
-56.3953438596
 10
286.2177978213
 20
-59.5905257679
 10
284.0318707509
 20
-62.8654391823
 10
281.9355532385
 20
-66.2119421519
 10
279.9340570597
 20
-69.6217147431
 10
278.0323582494
 20
-73.086279724
 10
276.2351847305
 20
-76.5970236401
 10
274.5470045595
 20
-80.1452182289
 10
272.9720148183
 20
-83.7220421197
 10
271.5141311796
 20
-87.3186027645
 10
270.1769781718
 20
-90.9259585471
 10
268.9638801679
 20
-94.5351410125
 10
267.8778531208
 20
-98.1371771645
 10
266.9215970647
 20
-101.7231117735
 10
266.097489403
 20
-105.2840296413
 10
265.4075789971
 20
-108.8110777649
 10
264.8535810729
 20
-112.2954873469
 10
264.4368729567
 20
-115.7285955962
 10
264.1584906504
 20
-119.1018672646
 10
264.0191262563
 20
-122.4069158673
 10
264.0191262563
 20
-125.6355245328
 10
264.1584906504
 20
-128.7796664311
 10
264.4368729567
 20
-131.8315247301
 10
264.8535810729
 20
-134.7835120293
 10
265.4075789971
 20
-137.6282892231
 10
266.097489403
 20
-140.3587837471
 10
266.9215970647
 20
-142.9682071618
 10
267.8778531208
 20
-145.4500720293
 10
268.9638801679
 20
-147.7982080427
 10
270.1769781718
 20
-150.0067773657
 10
271.5141311796
 20
-152.0702891471
 10
272.9720148183
 20
-153.9836131714
 10
274.5470045595
 20
-155.7419926136
 10
276.2351847305
 20
-157.3410558654
 10
278.0323582494
 20
-158.7768274037
 10
279.9340570597
 20
-160.045737674
 10
281.9355532385
 20
-161.1446319656
 10
284.0318707509
 20
-162.0707782541
 10
286.2177978213
 20
-162.821873994
 10
288.4878998906
 20
-163.3960518428
 10
290.8365331274
 20
-163.7918843039
 10
293.2578584593
 20
-164.0083872756
 10
295.7458560901
 20
-164.0450224972
 10
298.2943404657
 20
-163.9016988879
 10
300.8969756523
 20
-163.5787727727
 10
303.5472910889
 20
-163.0770469969
 10
306.2386976736
 20
-162.3977689297
 10
308.9645041456
 20
-161.5426273635
 10
311.7179337205
 20
-160.5137483149
 10
314.4921409387
 20
-159.3136897394
 10
317.2802286837
 20
-157.9454351717
 10
320.0752653303
 20
-156.4123863082
  0
ARC
  5
B5
330
1F
100
AcDbEntity
  8
0
  6
Continuous
 62
     7
370
    25
100
AcDbCircle
 10
476.1801374717
 20
-181.7781244096
 30
0.0
 40
136.22521628288
100
AcDbArc
 50
143.4799186733
 51
156.5254578594
  0
ENDSEC
  0
SECTION
  2
OBJECTS
  0
DICTIONARY
  5
C
330
0
100
AcDbDictionary
281
     1
  3
ACAD_GROUP
350
D
  3
ACAD_LAYOUT
350
1A
  3
ACAD_MLINESTYLE
350
17
  3
ACAD_PLOTSETTINGS
350
19
  3
ACAD_PLOTSTYLENAME
350
E
  3
ACAD_SCALELIST
350
47
  3
DWGPROPS
350
B6
  0
DICTIONARY
  5
D
102
{ACAD_REACTORS
330
C
102
}
330
C
100
AcDbDictionary
281
     1
  0
DICTIONARY
  5
1A
102
{ACAD_REACTORS
330
C
102
}
330
C
100
AcDbDictionary
281
     1
  3
Layout1
350
1E
  3
Layout2
350
26
  3
Model
350
22
  0
DICTIONARY
  5
17
102
{ACAD_REACTORS
330
C
102
}
330
C
100
AcDbDictionary
281
     1
  3
Standard
350
18
  0
DICTIONARY
  5
19
102
{ACAD_REACTORS
330
C
102
}
330
C
100
AcDbDictionary
281
     1
  0
ACDBDICTIONARYWDFLT
  5
E
102
{ACAD_REACTORS
330
C
102
}
330
C
100
AcDbDictionary
281
     1
  3
Normal
350
F
100
AcDbDictionaryWithDefault
340
F
  0
DICTIONARY
  5
47
102
{ACAD_REACTORS
330
C
102
}
330
C
100
AcDbDictionary
281
     1
  3
A0
350
48
  3
A1
350
49
  3
A2
350
4A
  3
A3
350
4B
  3
A4
350
4C
  3
A5
350
4D
  3
A6
350
4E
  3
A7
350
4F
  3
A8
350
50
  3
A9
350
51
  3
B0
350
52
  3
B1
350
53
  3
B2
350
54
  3
B3
350
55
  3
B4
350
56
  3
B5
350
57
  3
B6
350
58
  3
B7
350
59
  3
B8
350
5A
  3
B9
350
5B
  3
C0
350
5C
  3
C1
350
5D
  3
C2
350
5E
  3
C3
350
5F
  3
C4
350
60
  3
C5
350
61
  3
C6
350
62
  3
C7
350
63
  3
C8
350
64
  3
C9
350
65
  3
D0
350
66
  3
D1
350
67
  3
D2
350
68
  0
XRECORD
  5
B6
102
{ACAD_REACTORS
330
C
102
}
330
C
100
AcDbXrecord
280
     1
  1
DWGPROPS COOKIE
  2

  3

  4

  6

  7

  8
b.kav
  9

300
=
301
=
302
=
303
=
304
=
305
=
306
=
307
=
308
=
309
=
 40
0.0
 41
2460704.335219722
 42
2460704.335219919
  1

 90
        0
  0
LAYOUT
  5
1E
102
{ACAD_REACTORS
330
1A
102
}
330
1A
100
AcDbPlotSettings
  1

  2
none_device
  4

  6

 40
0.0
 41
0.0
 42
0.0
 43
0.0
 44
0.0
 45
0.0
 46
0.0
 47
0.0
 48
0.0
 49
0.0
140
0.0
141
0.0
142
1.0
143
1.0
 70
   688
 72
     1
 73
     0
 74
     5
  7

 75
    16
147
1.0
148
0.0
149
0.0
100
AcDbLayout
  1
Layout1
 70
     1
 71
     1
 10
0.0
 20
0.0
 11
420.0
 21
297.0
 12
0.0
 22
0.0
 32
0.0
 14
1.0000000000E+20
 24
1.0000000000E+20
 34
1.0000000000E+20
 15
-1.0000000000E+20
 25
-1.0000000000E+20
 35
-1.0000000000E+20
146
0.0
 13
0.0
 23
0.0
 33
0.0
 16
1.0
 26
0.0
 36
0.0
 17
0.0
 27
1.0
 37
0.0
 76
     0
330
1B
  0
LAYOUT
  5
26
102
{ACAD_REACTORS
330
1A
102
}
330
1A
100
AcDbPlotSettings
  1

  2
none_device
  4

  6

 40
0.0
 41
0.0
 42
0.0
 43
0.0
 44
0.0
 45
0.0
 46
0.0
 47
0.0
 48
0.0
 49
0.0
140
0.0
141
0.0
142
1.0
143
1.0
 70
   688
 72
     1
 73
     0
 74
     5
  7

 75
    16
147
1.0
148
0.0
149
0.0
100
AcDbLayout
  1
Layout2
 70
     1
 71
     2
 10
0.0
 20
0.0
 11
0.0
 21
0.0
 12
0.0
 22
0.0
 32
0.0
 14
0.0
 24
0.0
 34
0.0
 15
0.0
 25
0.0
 35
0.0
146
0.0
 13
0.0
 23
0.0
 33
0.0
 16
1.0
 26
0.0
 36
0.0
 17
0.0
 27
1.0
 37
0.0
 76
     0
330
23
  0
LAYOUT
  5
22
102
{ACAD_REACTORS
330
1A
102
}
330
1A
100
AcDbPlotSettings
  1

  2
none_device
  4
Letter_(8.50_x_11.00_Inches)
  6

 40
6.35
 41
6.35
 42
6.35000508
 43
6.35000508
 44
215.9
 45
279.4
 46
0.0
 47
0.0
 48
0.0
 49
0.0
140
0.0
141
0.0
142
1.0
143
1.0
 70
  1712
 72
     1
 73
     0
 74
     0
  7

 75
     0
147
1.0
148
0.0
149
0.0
100
AcDbLayout
  1
Model
 70
     1
 71
     0
 10
0.0
 20
0.0
 11
279.4
 21
215.9
 12
0.0
 22
0.0
 32
0.0
 14
0.0
 24
0.0
 34
0.0
 15
279.4
 25
215.9
 35
0.0
146
0.0
 13
0.0
 23
0.0
 33
0.0
 16
1.0
 26
0.0
 36
0.0
 17
0.0
 27
1.0
 37
0.0
 76
     0
330
1F
331
29
  0
MLINESTYLE
  5
18
102
{ACAD_REACTORS
330
17
102
}
330
17
100
AcDbMlineStyle
  2
Standard
 70
     0
  3

 62
   256
 51
90.0
 52
90.0
 71
     2
 49
0.5
 62
   256
  6
BYLAYER
 49
-0.5
 62
   256
  6
BYLAYER
  0
ACDBPLACEHOLDER
  5
F
102
{ACAD_REACTORS
330
E
102
}
330
E
  0
SCALE
  5
48
102
{ACAD_REACTORS
330
47
102
}
330
47
100
AcDbScale
 70
     0
300
1:1
140
1.0
141
1.0
290
     1
  0
SCALE
  5
49
102
{ACAD_REACTORS
330
47
102
}
330
47
100
AcDbScale
 70
     0
300
1:2
140
1.0
141
2.0
290
     0
  0
SCALE
  5
4A
102
{ACAD_REACTORS
330
47
102
}
330
47
100
AcDbScale
 70
     0
300
1:4
140
1.0
141
4.0
290
     0
  0
SCALE
  5
4B
102
{ACAD_REACTORS
330
47
102
}
330
47
100
AcDbScale
 70
     0
300
1:5
140
1.0
141
5.0
290
     0
  0
SCALE
  5
4C
102
{ACAD_REACTORS
330
47
102
}
330
47
100
AcDbScale
 70
     0
300
1:8
140
1.0
141
8.0
290
     0
  0
SCALE
  5
4D
102
{ACAD_REACTORS
330
47
102
}
330
47
100
AcDbScale
 70
     0
300
1:10
140
1.0
141
10.0
290
     0
  0
SCALE
  5
4E
102
{ACAD_REACTORS
330
47
102
}
330
47
100
AcDbScale
 70
     0
300
1:16
140
1.0
141
16.0
290
     0
  0
SCALE
  5
4F
102
{ACAD_REACTORS
330
47
102
}
330
47
100
AcDbScale
 70
     0
300
1:20
140
1.0
141
20.0
290
     0
  0
SCALE
  5
50
102
{ACAD_REACTORS
330
47
102
}
330
47
100
AcDbScale
 70
     0
300
1:30
140
1.0
141
30.0
290
     0
  0
SCALE
  5
51
102
{ACAD_REACTORS
330
47
102
}
330
47
100
AcDbScale
 70
     0
300
1:40
140
1.0
141
40.0
290
     0
  0
SCALE
  5
52
102
{ACAD_REACTORS
330
47
102
}
330
47
100
AcDbScale
 70
     0
300
1:50
140
1.0
141
50.0
290
     0
  0
SCALE
  5
53
102
{ACAD_REACTORS
330
47
102
}
330
47
100
AcDbScale
 70
     0
300
1:100
140
1.0
141
100.0
290
     0
  0
SCALE
  5
54
102
{ACAD_REACTORS
330
47
102
}
330
47
100
AcDbScale
 70
     0
300
2:1
140
2.0
141
1.0
290
     0
  0
SCALE
  5
55
102
{ACAD_REACTORS
330
47
102
}
330
47
100
AcDbScale
 70
     0
300
4:1
140
4.0
141
1.0
290
     0
  0
SCALE
  5
56
102
{ACAD_REACTORS
330
47
102
}
330
47
100
AcDbScale
 70
     0
300
8:1
140
8.0
141
1.0
290
     0
  0
SCALE
  5
57
102
{ACAD_REACTORS
330
47
102
}
330
47
100
AcDbScale
 70
     0
300
10:1
140
10.0
141
1.0
290
     0
  0
SCALE
  5
58
102
{ACAD_REACTORS
330
47
102
}
330
47
100
AcDbScale
 70
     0
300
100:1
140
100.0
141
1.0
290
     0
  0
SCALE
  5
59
102
{ACAD_REACTORS
330
47
102
}
330
47
100
AcDbScale
 70
     0
300
1/128" = 1'-0"
140
0.0078125
141
12.0
290
     0
  0
SCALE
  5
5A
102
{ACAD_REACTORS
330
47
102
}
330
47
100
AcDbScale
 70
     0
300
1/64" = 1'-0"
140
0.015625
141
12.0
290
     0
  0
SCALE
  5
5B
102
{ACAD_REACTORS
330
47
102
}
330
47
100
AcDbScale
 70
     0
300
1/32" = 1'-0"
140
0.03125
141
12.0
290
     0
  0
SCALE
  5
5C
102
{ACAD_REACTORS
330
47
102
}
330
47
100
AcDbScale
 70
     0
300
1/16" = 1'-0"
140
0.0625
141
12.0
290
     0
  0
SCALE
  5
5D
102
{ACAD_REACTORS
330
47
102
}
330
47
100
AcDbScale
 70
     0
300
3/32" = 1'-0"
140
0.09375
141
12.0
290
     0
  0
SCALE
  5
5E
102
{ACAD_REACTORS
330
47
102
}
330
47
100
AcDbScale
 70
     0
300
1/8" = 1'-0"
140
0.125
141
12.0
290
     0
  0
SCALE
  5
5F
102
{ACAD_REACTORS
330
47
102
}
330
47
100
AcDbScale
 70
     0
300
3/16" = 1'-0"
140
0.1875
141
12.0
290
     0
  0
SCALE
  5
60
102
{ACAD_REACTORS
330
47
102
}
330
47
100
AcDbScale
 70
     0
300
1/4" = 1'-0"
140
0.25
141
12.0
290
     0
  0
SCALE
  5
61
102
{ACAD_REACTORS
330
47
102
}
330
47
100
AcDbScale
 70
     0
300
3/8" = 1'-0"
140
0.375
141
12.0
290
     0
  0
SCALE
  5
62
102
{ACAD_REACTORS
330
47
102
}
330
47
100
AcDbScale
 70
     0
300
1/2" = 1'-0"
140
0.5
141
12.0
290
     0
  0
SCALE
  5
63
102
{ACAD_REACTORS
330
47
102
}
330
47
100
AcDbScale
 70
     0
300
3/4" = 1'-0"
140
0.75
141
12.0
290
     0
  0
SCALE
  5
64
102
{ACAD_REACTORS
330
47
102
}
330
47
100
AcDbScale
 70
     0
300
1" = 1'-0"
140
1.0
141
12.0
290
     0
  0
SCALE
  5
65
102
{ACAD_REACTORS
330
47
102
}
330
47
100
AcDbScale
 70
     0
300
1-1/2" = 1'-0"
140
1.5
141
12.0
290
     0
  0
SCALE
  5
66
102
{ACAD_REACTORS
330
47
102
}
330
47
100
AcDbScale
 70
     0
300
3" = 1'-0"
140
3.0
141
12.0
290
     0
  0
SCALE
  5
67
102
{ACAD_REACTORS
330
47
102
}
330
47
100
AcDbScale
 70
     0
300
6" = 1'-0"
140
6.0
141
12.0
290
     0
  0
SCALE
  5
68
102
{ACAD_REACTORS
330
47
102
}
330
47
100
AcDbScale
 70
     0
300
1'-0" = 1'-0"
140
12.0
141
12.0
290
     0
  0
ENDSEC
  0
EOF
